ISO-10303-21;
HEADER;
/* Generated by software containing ST-Developer
 * from STEP Tools, Inc. (www.steptools.com) 
 */

FILE_DESCRIPTION(
/* description */ (''),
/* implementation_level */ '2;1');

FILE_NAME(
/* name */ 'BobSkate_BackHalfPartB.step',
/* time_stamp */ '2024-04-30T23:31:46-04:00',
/* author */ (''),
/* organization */ (''),
/* preprocessor_version */ 'ST-DEVELOPER v20',
/* originating_system */ 'Autodesk Translation Framework v12.20.1.177',

/* authorisation */ '');

FILE_SCHEMA (('AUTOMOTIVE_DESIGN { 1 0 10303 214 3 1 1 }'));
ENDSEC;

DATA;
#10=MECHANICAL_DESIGN_GEOMETRIC_PRESENTATION_REPRESENTATION('',(#13),#393);
#11=SHAPE_REPRESENTATION_RELATIONSHIP('SRR','None',#400,#12);
#12=ADVANCED_BREP_SHAPE_REPRESENTATION('',(#14),#392);
#13=STYLED_ITEM('',(#409),#14);
#14=MANIFOLD_SOLID_BREP('Body4',#229);
#15=FACE_BOUND('',#46,.T.);
#16=FACE_BOUND('',#49,.T.);
#17=PLANE('',#246);
#18=PLANE('',#250);
#19=PLANE('',#251);
#20=PLANE('',#258);
#21=PLANE('',#259);
#22=PLANE('',#260);
#23=PLANE('',#261);
#24=PLANE('',#262);
#25=FACE_OUTER_BOUND('',#37,.T.);
#26=FACE_OUTER_BOUND('',#38,.T.);
#27=FACE_OUTER_BOUND('',#39,.T.);
#28=FACE_OUTER_BOUND('',#40,.T.);
#29=FACE_OUTER_BOUND('',#41,.T.);
#30=FACE_OUTER_BOUND('',#42,.T.);
#31=FACE_OUTER_BOUND('',#43,.T.);
#32=FACE_OUTER_BOUND('',#44,.T.);
#33=FACE_OUTER_BOUND('',#45,.T.);
#34=FACE_OUTER_BOUND('',#47,.T.);
#35=FACE_OUTER_BOUND('',#48,.T.);
#36=FACE_OUTER_BOUND('',#50,.T.);
#37=EDGE_LOOP('',(#153,#154,#155,#156));
#38=EDGE_LOOP('',(#157,#158,#159,#160));
#39=EDGE_LOOP('',(#161,#162,#163,#164));
#40=EDGE_LOOP('',(#165,#166,#167,#168));
#41=EDGE_LOOP('',(#169,#170,#171,#172));
#42=EDGE_LOOP('',(#173,#174,#175,#176));
#43=EDGE_LOOP('',(#177,#178,#179,#180));
#44=EDGE_LOOP('',(#181,#182,#183,#184));
#45=EDGE_LOOP('',(#185,#186,#187,#188,#189,#190));
#46=EDGE_LOOP('',(#191,#192,#193,#194));
#47=EDGE_LOOP('',(#195,#196,#197,#198));
#48=EDGE_LOOP('',(#199,#200,#201,#202,#203,#204));
#49=EDGE_LOOP('',(#205,#206,#207,#208));
#50=EDGE_LOOP('',(#209,#210,#211,#212));
#51=LINE('',#333,#73);
#52=LINE('',#336,#74);
#53=LINE('',#340,#75);
#54=LINE('',#342,#76);
#55=LINE('',#344,#77);
#56=LINE('',#345,#78);
#57=LINE('',#349,#79);
#58=LINE('',#353,#80);
#59=LINE('',#356,#81);
#60=LINE('',#357,#82);
#61=LINE('',#359,#83);
#62=LINE('',#360,#84);
#63=LINE('',#365,#85);
#64=LINE('',#372,#86);
#65=LINE('',#376,#87);
#66=LINE('',#378,#88);
#67=LINE('',#380,#89);
#68=LINE('',#381,#90);
#69=LINE('',#383,#91);
#70=LINE('',#384,#92);
#71=LINE('',#386,#93);
#72=LINE('',#388,#94);
#73=VECTOR('',#269,1000.);
#74=VECTOR('',#272,1000.);
#75=VECTOR('',#275,1000.);
#76=VECTOR('',#276,1000.);
#77=VECTOR('',#277,1000.);
#78=VECTOR('',#278,1000.);
#79=VECTOR('',#281,1000.);
#80=VECTOR('',#284,1000.);
#81=VECTOR('',#289,1000.);
#82=VECTOR('',#290,1000.);
#83=VECTOR('',#293,1000.);
#84=VECTOR('',#294,1000.);
#85=VECTOR('',#299,1000.);
#86=VECTOR('',#308,1000.);
#87=VECTOR('',#311,10.);
#88=VECTOR('',#312,10.);
#89=VECTOR('',#313,10.);
#90=VECTOR('',#314,10.);
#91=VECTOR('',#317,10.);
#92=VECTOR('',#318,1000.);
#93=VECTOR('',#321,10.);
#94=VECTOR('',#324,10.);
#95=CIRCLE('',#244,3.);
#96=CIRCLE('',#245,3.);
#97=CIRCLE('',#248,3.);
#98=CIRCLE('',#249,3.);
#99=CIRCLE('',#253,5.);
#100=CIRCLE('',#254,5.);
#101=CIRCLE('',#256,5.);
#102=CIRCLE('',#257,5.);
#103=VERTEX_POINT('',#329);
#104=VERTEX_POINT('',#330);
#105=VERTEX_POINT('',#332);
#106=VERTEX_POINT('',#334);
#107=VERTEX_POINT('',#338);
#108=VERTEX_POINT('',#339);
#109=VERTEX_POINT('',#341);
#110=VERTEX_POINT('',#343);
#111=VERTEX_POINT('',#347);
#112=VERTEX_POINT('',#348);
#113=VERTEX_POINT('',#350);
#114=VERTEX_POINT('',#352);
#115=VERTEX_POINT('',#362);
#116=VERTEX_POINT('',#364);
#117=VERTEX_POINT('',#368);
#118=VERTEX_POINT('',#370);
#119=VERTEX_POINT('',#374);
#120=VERTEX_POINT('',#375);
#121=VERTEX_POINT('',#377);
#122=VERTEX_POINT('',#379);
#123=EDGE_CURVE('',#103,#104,#95,.T.);
#124=EDGE_CURVE('',#103,#105,#51,.T.);
#125=EDGE_CURVE('',#105,#106,#96,.T.);
#126=EDGE_CURVE('',#104,#106,#52,.T.);
#127=EDGE_CURVE('',#107,#108,#53,.T.);
#128=EDGE_CURVE('',#107,#109,#54,.T.);
#129=EDGE_CURVE('',#109,#110,#55,.T.);
#130=EDGE_CURVE('',#110,#108,#56,.T.);
#131=EDGE_CURVE('',#111,#112,#57,.T.);
#132=EDGE_CURVE('',#112,#113,#97,.T.);
#133=EDGE_CURVE('',#114,#113,#58,.T.);
#134=EDGE_CURVE('',#111,#114,#98,.T.);
#135=EDGE_CURVE('',#106,#112,#59,.T.);
#136=EDGE_CURVE('',#104,#111,#60,.T.);
#137=EDGE_CURVE('',#113,#105,#61,.T.);
#138=EDGE_CURVE('',#114,#103,#62,.T.);
#139=EDGE_CURVE('',#115,#107,#99,.T.);
#140=EDGE_CURVE('',#116,#115,#63,.T.);
#141=EDGE_CURVE('',#109,#116,#100,.T.);
#142=EDGE_CURVE('',#108,#117,#101,.T.);
#143=EDGE_CURVE('',#118,#110,#102,.T.);
#144=EDGE_CURVE('',#117,#118,#64,.T.);
#145=EDGE_CURVE('',#119,#120,#65,.T.);
#146=EDGE_CURVE('',#121,#119,#66,.T.);
#147=EDGE_CURVE('',#121,#122,#67,.T.);
#148=EDGE_CURVE('',#120,#122,#68,.T.);
#149=EDGE_CURVE('',#115,#119,#69,.T.);
#150=EDGE_CURVE('',#117,#121,#70,.T.);
#151=EDGE_CURVE('',#122,#118,#71,.T.);
#152=EDGE_CURVE('',#120,#116,#72,.T.);
#153=ORIENTED_EDGE('',*,*,#123,.F.);
#154=ORIENTED_EDGE('',*,*,#124,.T.);
#155=ORIENTED_EDGE('',*,*,#125,.T.);
#156=ORIENTED_EDGE('',*,*,#126,.F.);
#157=ORIENTED_EDGE('',*,*,#127,.F.);
#158=ORIENTED_EDGE('',*,*,#128,.T.);
#159=ORIENTED_EDGE('',*,*,#129,.T.);
#160=ORIENTED_EDGE('',*,*,#130,.T.);
#161=ORIENTED_EDGE('',*,*,#131,.T.);
#162=ORIENTED_EDGE('',*,*,#132,.T.);
#163=ORIENTED_EDGE('',*,*,#133,.F.);
#164=ORIENTED_EDGE('',*,*,#134,.F.);
#165=ORIENTED_EDGE('',*,*,#126,.T.);
#166=ORIENTED_EDGE('',*,*,#135,.T.);
#167=ORIENTED_EDGE('',*,*,#131,.F.);
#168=ORIENTED_EDGE('',*,*,#136,.F.);
#169=ORIENTED_EDGE('',*,*,#133,.T.);
#170=ORIENTED_EDGE('',*,*,#137,.T.);
#171=ORIENTED_EDGE('',*,*,#124,.F.);
#172=ORIENTED_EDGE('',*,*,#138,.F.);
#173=ORIENTED_EDGE('',*,*,#139,.F.);
#174=ORIENTED_EDGE('',*,*,#140,.F.);
#175=ORIENTED_EDGE('',*,*,#141,.F.);
#176=ORIENTED_EDGE('',*,*,#128,.F.);
#177=ORIENTED_EDGE('',*,*,#142,.F.);
#178=ORIENTED_EDGE('',*,*,#130,.F.);
#179=ORIENTED_EDGE('',*,*,#143,.F.);
#180=ORIENTED_EDGE('',*,*,#144,.F.);
#181=ORIENTED_EDGE('',*,*,#145,.F.);
#182=ORIENTED_EDGE('',*,*,#146,.F.);
#183=ORIENTED_EDGE('',*,*,#147,.T.);
#184=ORIENTED_EDGE('',*,*,#148,.F.);
#185=ORIENTED_EDGE('',*,*,#149,.F.);
#186=ORIENTED_EDGE('',*,*,#139,.T.);
#187=ORIENTED_EDGE('',*,*,#127,.T.);
#188=ORIENTED_EDGE('',*,*,#142,.T.);
#189=ORIENTED_EDGE('',*,*,#150,.T.);
#190=ORIENTED_EDGE('',*,*,#146,.T.);
#191=ORIENTED_EDGE('',*,*,#136,.T.);
#192=ORIENTED_EDGE('',*,*,#134,.T.);
#193=ORIENTED_EDGE('',*,*,#138,.T.);
#194=ORIENTED_EDGE('',*,*,#123,.T.);
#195=ORIENTED_EDGE('',*,*,#150,.F.);
#196=ORIENTED_EDGE('',*,*,#144,.T.);
#197=ORIENTED_EDGE('',*,*,#151,.F.);
#198=ORIENTED_EDGE('',*,*,#147,.F.);
#199=ORIENTED_EDGE('',*,*,#152,.F.);
#200=ORIENTED_EDGE('',*,*,#148,.T.);
#201=ORIENTED_EDGE('',*,*,#151,.T.);
#202=ORIENTED_EDGE('',*,*,#143,.T.);
#203=ORIENTED_EDGE('',*,*,#129,.F.);
#204=ORIENTED_EDGE('',*,*,#141,.T.);
#205=ORIENTED_EDGE('',*,*,#132,.F.);
#206=ORIENTED_EDGE('',*,*,#135,.F.);
#207=ORIENTED_EDGE('',*,*,#125,.F.);
#208=ORIENTED_EDGE('',*,*,#137,.F.);
#209=ORIENTED_EDGE('',*,*,#152,.T.);
#210=ORIENTED_EDGE('',*,*,#140,.T.);
#211=ORIENTED_EDGE('',*,*,#149,.T.);
#212=ORIENTED_EDGE('',*,*,#145,.T.);
#213=CYLINDRICAL_SURFACE('',#243,3.);
#214=CYLINDRICAL_SURFACE('',#247,3.);
#215=CYLINDRICAL_SURFACE('',#252,5.);
#216=CYLINDRICAL_SURFACE('',#255,5.);
#217=ADVANCED_FACE('',(#25),#213,.F.);
#218=ADVANCED_FACE('',(#26),#17,.F.);
#219=ADVANCED_FACE('',(#27),#214,.F.);
#220=ADVANCED_FACE('',(#28),#18,.F.);
#221=ADVANCED_FACE('',(#29),#19,.F.);
#222=ADVANCED_FACE('',(#30),#215,.T.);
#223=ADVANCED_FACE('',(#31),#216,.T.);
#224=ADVANCED_FACE('',(#32),#20,.F.);
#225=ADVANCED_FACE('',(#33,#15),#21,.F.);
#226=ADVANCED_FACE('',(#34),#22,.F.);
#227=ADVANCED_FACE('',(#35,#16),#23,.T.);
#228=ADVANCED_FACE('',(#36),#24,.T.);
#229=CLOSED_SHELL('',(#217,#218,#219,#220,#221,#222,#223,#224,#225,#226,
#227,#228));
#230=DERIVED_UNIT_ELEMENT(#232,1.);
#231=DERIVED_UNIT_ELEMENT(#395,-3.);
#232=(
MASS_UNIT()
NAMED_UNIT(*)
SI_UNIT(.KILO.,.GRAM.)
);
#233=DERIVED_UNIT((#230,#231));
#234=MEASURE_REPRESENTATION_ITEM('density measure',
POSITIVE_RATIO_MEASURE(7850.),#233);
#235=PROPERTY_DEFINITION_REPRESENTATION(#240,#237);
#236=PROPERTY_DEFINITION_REPRESENTATION(#241,#238);
#237=REPRESENTATION('material name',(#239),#392);
#238=REPRESENTATION('density',(#234),#392);
#239=DESCRIPTIVE_REPRESENTATION_ITEM('Steel','Steel');
#240=PROPERTY_DEFINITION('material property','material name',#402);
#241=PROPERTY_DEFINITION('material property','density of part',#402);
#242=AXIS2_PLACEMENT_3D('',#327,#263,#264);
#243=AXIS2_PLACEMENT_3D('',#328,#265,#266);
#244=AXIS2_PLACEMENT_3D('',#331,#267,#268);
#245=AXIS2_PLACEMENT_3D('',#335,#270,#271);
#246=AXIS2_PLACEMENT_3D('',#337,#273,#274);
#247=AXIS2_PLACEMENT_3D('',#346,#279,#280);
#248=AXIS2_PLACEMENT_3D('',#351,#282,#283);
#249=AXIS2_PLACEMENT_3D('',#354,#285,#286);
#250=AXIS2_PLACEMENT_3D('',#355,#287,#288);
#251=AXIS2_PLACEMENT_3D('',#358,#291,#292);
#252=AXIS2_PLACEMENT_3D('',#361,#295,#296);
#253=AXIS2_PLACEMENT_3D('',#363,#297,#298);
#254=AXIS2_PLACEMENT_3D('',#366,#300,#301);
#255=AXIS2_PLACEMENT_3D('',#367,#302,#303);
#256=AXIS2_PLACEMENT_3D('',#369,#304,#305);
#257=AXIS2_PLACEMENT_3D('',#371,#306,#307);
#258=AXIS2_PLACEMENT_3D('',#373,#309,#310);
#259=AXIS2_PLACEMENT_3D('',#382,#315,#316);
#260=AXIS2_PLACEMENT_3D('',#385,#319,#320);
#261=AXIS2_PLACEMENT_3D('',#387,#322,#323);
#262=AXIS2_PLACEMENT_3D('',#389,#325,#326);
#263=DIRECTION('axis',(0.,0.,1.));
#264=DIRECTION('refdir',(1.,0.,0.));
#265=DIRECTION('center_axis',(0.,1.,0.));
#266=DIRECTION('ref_axis',(0.,0.,1.));
#267=DIRECTION('center_axis',(0.,1.,0.));
#268=DIRECTION('ref_axis',(0.,0.,1.));
#269=DIRECTION('',(0.,1.,0.));
#270=DIRECTION('center_axis',(0.,1.,0.));
#271=DIRECTION('ref_axis',(0.,0.,1.));
#272=DIRECTION('',(0.,1.,0.));
#273=DIRECTION('center_axis',(0.,0.,-1.));
#274=DIRECTION('ref_axis',(-1.,0.,0.));
#275=DIRECTION('',(-1.,0.,0.));
#276=DIRECTION('',(0.,1.,0.));
#277=DIRECTION('',(-1.,0.,0.));
#278=DIRECTION('',(0.,-1.,0.));
#279=DIRECTION('center_axis',(0.,1.,0.));
#280=DIRECTION('ref_axis',(1.22464679914735E-16,0.,-1.));
#281=DIRECTION('',(0.,1.,0.));
#282=DIRECTION('center_axis',(0.,1.,0.));
#283=DIRECTION('ref_axis',(0.,0.,1.));
#284=DIRECTION('',(0.,1.,0.));
#285=DIRECTION('center_axis',(0.,1.,0.));
#286=DIRECTION('ref_axis',(0.,0.,1.));
#287=DIRECTION('center_axis',(1.,0.,-3.07519161650434E-16));
#288=DIRECTION('ref_axis',(-3.07519161650434E-16,0.,-1.));
#289=DIRECTION('',(-3.07519161650434E-16,0.,-1.));
#290=DIRECTION('',(-3.07519161650434E-16,0.,-1.));
#291=DIRECTION('center_axis',(-1.,0.,3.07519161650434E-16));
#292=DIRECTION('ref_axis',(3.07519161650434E-16,0.,1.));
#293=DIRECTION('',(3.07519161650434E-16,0.,1.));
#294=DIRECTION('',(3.07519161650434E-16,0.,1.));
#295=DIRECTION('center_axis',(0.,1.,0.));
#296=DIRECTION('ref_axis',(0.,0.,1.));
#297=DIRECTION('center_axis',(0.,-1.,0.));
#298=DIRECTION('ref_axis',(5.20417042793042E-15,0.,1.));
#299=DIRECTION('',(0.,-1.,0.));
#300=DIRECTION('center_axis',(0.,1.,0.));
#301=DIRECTION('ref_axis',(0.,0.,1.));
#302=DIRECTION('center_axis',(0.,1.,0.));
#303=DIRECTION('ref_axis',(0.,0.,1.));
#304=DIRECTION('center_axis',(0.,-1.,0.));
#305=DIRECTION('ref_axis',(0.,0.,1.));
#306=DIRECTION('center_axis',(0.,1.,0.));
#307=DIRECTION('ref_axis',(0.,0.,1.));
#308=DIRECTION('',(0.,1.,0.));
#309=DIRECTION('center_axis',(0.,0.,1.));
#310=DIRECTION('ref_axis',(1.,0.,0.));
#311=DIRECTION('',(0.,1.,0.));
#312=DIRECTION('',(1.,0.,0.));
#313=DIRECTION('',(0.,1.,0.));
#314=DIRECTION('',(-1.,0.,0.));
#315=DIRECTION('center_axis',(0.,1.,0.));
#316=DIRECTION('ref_axis',(0.,0.,1.));
#317=DIRECTION('',(0.,0.,-1.));
#318=DIRECTION('',(0.,0.,-1.));
#319=DIRECTION('center_axis',(1.,0.,0.));
#320=DIRECTION('ref_axis',(0.,0.,-1.));
#321=DIRECTION('',(0.,0.,1.));
#322=DIRECTION('center_axis',(0.,1.,0.));
#323=DIRECTION('ref_axis',(0.,0.,1.));
#324=DIRECTION('',(0.,0.,1.));
#325=DIRECTION('center_axis',(1.,0.,0.));
#326=DIRECTION('ref_axis',(0.,0.,-1.));
#327=CARTESIAN_POINT('',(0.,0.,0.));
#328=CARTESIAN_POINT('Origin',(7.04171909509728E-15,-8.,117.5));
#329=CARTESIAN_POINT('',(-2.99999999999999,-6.8,117.5));
#330=CARTESIAN_POINT('',(3.00000000000001,-6.8,117.5));
#331=CARTESIAN_POINT('Origin',(7.04171909509728E-15,-6.8,117.5));
#332=CARTESIAN_POINT('',(-2.99999999999999,0.,117.5));
#333=CARTESIAN_POINT('',(-2.99999999999999,-8.,117.5));
#334=CARTESIAN_POINT('',(3.00000000000001,0.,117.5));
#335=CARTESIAN_POINT('Origin',(7.04171909509728E-15,0.,117.5));
#336=CARTESIAN_POINT('',(3.00000000000001,-8.,117.5));
#337=CARTESIAN_POINT('Origin',(-14.75,-6.8,132.5));
#338=CARTESIAN_POINT('',(9.75000000000002,-6.8,132.5));
#339=CARTESIAN_POINT('',(-9.75000000000001,-6.8,132.5));
#340=CARTESIAN_POINT('',(-14.75,-6.8,132.5));
#341=CARTESIAN_POINT('',(9.75000000000002,0.,132.5));
#342=CARTESIAN_POINT('',(9.75000000000003,-6.8,132.5));
#343=CARTESIAN_POINT('',(-9.75000000000001,0.,132.5));
#344=CARTESIAN_POINT('',(-14.75,0.,132.5));
#345=CARTESIAN_POINT('',(-9.75000000000001,-6.8,132.5));
#346=CARTESIAN_POINT('Origin',(-9.79717439317882E-15,-8.,62.5));
#347=CARTESIAN_POINT('',(2.99999999999999,-6.8,62.5));
#348=CARTESIAN_POINT('',(2.99999999999999,0.,62.5));
#349=CARTESIAN_POINT('',(2.99999999999999,-8.,62.5));
#350=CARTESIAN_POINT('',(-3.00000000000001,0.,62.5));
#351=CARTESIAN_POINT('Origin',(-9.79717439317882E-15,0.,62.5));
#352=CARTESIAN_POINT('',(-3.00000000000001,-6.8,62.5));
#353=CARTESIAN_POINT('',(-3.00000000000001,-8.,62.5));
#354=CARTESIAN_POINT('Origin',(-9.79717439317882E-15,-6.8,62.5));
#355=CARTESIAN_POINT('Origin',(2.99999999999999,-8.,62.5));
#356=CARTESIAN_POINT('',(2.99999999999999,0.,62.5));
#357=CARTESIAN_POINT('',(2.99999999999997,-6.8,-9.22557484951293E-16));
#358=CARTESIAN_POINT('Origin',(-3.00000000000001,-8.,62.5));
#359=CARTESIAN_POINT('',(-3.00000000000001,0.,62.5));
#360=CARTESIAN_POINT('',(-3.00000000000003,-6.8,9.22557484951311E-16));
#361=CARTESIAN_POINT('Origin',(9.75000000000003,-6.8,127.5));
#362=CARTESIAN_POINT('',(14.75,-6.8,127.5));
#363=CARTESIAN_POINT('Origin',(9.75000000000003,-6.8,127.5));
#364=CARTESIAN_POINT('',(14.75,0.,127.5));
#365=CARTESIAN_POINT('',(14.75,-6.8,127.5));
#366=CARTESIAN_POINT('Origin',(9.75000000000003,0.,127.5));
#367=CARTESIAN_POINT('Origin',(-9.75000000000001,-6.8,127.5));
#368=CARTESIAN_POINT('',(-14.75,-6.8,127.5));
#369=CARTESIAN_POINT('Origin',(-9.75000000000001,-6.8,127.5));
#370=CARTESIAN_POINT('',(-14.75,0.,127.5));
#371=CARTESIAN_POINT('Origin',(-9.75000000000001,0.,127.5));
#372=CARTESIAN_POINT('',(-14.75,-6.8,127.5));
#373=CARTESIAN_POINT('Origin',(-35.,10.,-47.5));
#374=CARTESIAN_POINT('',(14.75,-6.8,-47.5));
#375=CARTESIAN_POINT('',(14.75,0.,-47.5));
#376=CARTESIAN_POINT('',(14.75,-1.11022302462516E-15,-47.5));
#377=CARTESIAN_POINT('',(-14.75,-6.8,-47.5));
#378=CARTESIAN_POINT('',(14.75,-6.8,-47.5));
#379=CARTESIAN_POINT('',(-14.75,0.,-47.5));
#380=CARTESIAN_POINT('',(-14.75,-1.11022302462516E-15,-47.5));
#381=CARTESIAN_POINT('',(-17.5,0.,-47.5));
#382=CARTESIAN_POINT('Origin',(0.,-6.8,0.));
#383=CARTESIAN_POINT('',(14.75,-6.8,4.44089209850063E-15));
#384=CARTESIAN_POINT('',(-14.75,-6.8,27.5));
#385=CARTESIAN_POINT('Origin',(-14.75,-10.,8.88178419700125E-15));
#386=CARTESIAN_POINT('',(-14.75,0.,8.88178419700125E-15));
#387=CARTESIAN_POINT('Origin',(2.22044604925031E-15,0.,8.88178419700125E-15));
#388=CARTESIAN_POINT('',(14.75,0.,8.88178419700125E-15));
#389=CARTESIAN_POINT('Origin',(14.75,-10.,8.88178419700125E-15));
#390=UNCERTAINTY_MEASURE_WITH_UNIT(LENGTH_MEASURE(0.01),#394,
'DISTANCE_ACCURACY_VALUE',
'Maximum model space distance between geometric entities at asserted c
onnectivities');
#391=UNCERTAINTY_MEASURE_WITH_UNIT(LENGTH_MEASURE(0.01),#394,
'DISTANCE_ACCURACY_VALUE',
'Maximum model space distance between geometric entities at asserted c
onnectivities');
#392=(
GEOMETRIC_REPRESENTATION_CONTEXT(3)
GLOBAL_UNCERTAINTY_ASSIGNED_CONTEXT((#390))
GLOBAL_UNIT_ASSIGNED_CONTEXT((#394,#396,#397))
REPRESENTATION_CONTEXT('','3D')
);
#393=(
GEOMETRIC_REPRESENTATION_CONTEXT(3)
GLOBAL_UNCERTAINTY_ASSIGNED_CONTEXT((#391))
GLOBAL_UNIT_ASSIGNED_CONTEXT((#394,#396,#397))
REPRESENTATION_CONTEXT('','3D')
);
#394=(
LENGTH_UNIT()
NAMED_UNIT(*)
SI_UNIT(.MILLI.,.METRE.)
);
#395=(
LENGTH_UNIT()
NAMED_UNIT(*)
SI_UNIT($,.METRE.)
);
#396=(
NAMED_UNIT(*)
PLANE_ANGLE_UNIT()
SI_UNIT($,.RADIAN.)
);
#397=(
NAMED_UNIT(*)
SI_UNIT($,.STERADIAN.)
SOLID_ANGLE_UNIT()
);
#398=SHAPE_DEFINITION_REPRESENTATION(#399,#400);
#399=PRODUCT_DEFINITION_SHAPE('',$,#402);
#400=SHAPE_REPRESENTATION('',(#242),#392);
#401=PRODUCT_DEFINITION_CONTEXT('part definition',#406,'design');
#402=PRODUCT_DEFINITION('BobSkate_Half2','BobSkate_Half2 v3',#403,#401);
#403=PRODUCT_DEFINITION_FORMATION('',$,#408);
#404=PRODUCT_RELATED_PRODUCT_CATEGORY('BobSkate_Half2 v3',
'BobSkate_Half2 v3',(#408));
#405=APPLICATION_PROTOCOL_DEFINITION('international standard',
'automotive_design',2009,#406);
#406=APPLICATION_CONTEXT(
'Core Data for Automotive Mechanical Design Process');
#407=PRODUCT_CONTEXT('part definition',#406,'mechanical');
#408=PRODUCT('BobSkate_Half2','BobSkate_Half2 v3',$,(#407));
#409=PRESENTATION_STYLE_ASSIGNMENT((#410));
#410=SURFACE_STYLE_USAGE(.BOTH.,#411);
#411=SURFACE_SIDE_STYLE('',(#412));
#412=SURFACE_STYLE_FILL_AREA(#413);
#413=FILL_AREA_STYLE('Steel - Satin',(#414));
#414=FILL_AREA_STYLE_COLOUR('Steel - Satin',#415);
#415=COLOUR_RGB('Steel - Satin',0.627450980392157,0.627450980392157,0.627450980392157);
ENDSEC;
END-ISO-10303-21;
